Александр Дольский

Старые паруса

(Александр Дольский)
Тональность: 0
Аккорды

1 из 6
2 из 6
3 из 6
4 из 6
5 из 6
6 из 6
 
 
1 из 2
2 из 2
 
 
1 из 7
2 из 7
3 из 7
4 из 7
5 из 7
6 из 7
7 из 7
1 из 5
2 из 5
3 из 5
4 из 5
5 из 5
 
 
 
Вступление: 
1----------12--------|------------10---------- 
2-----10--------10---|------10----------10---- 
3---9----9----9----9-|---10----10----10----10- 
4--------------------|-0---------------------- 
5-0------------------|------------------------ 
6--------------------|------------------------ 
 
1---------10--------|----------8--------- 
2-----9--------9----|-----10-------10---- 
3---9---9----9---9--|---9----9---9----9-- 
4-9-----------------|-------------------- 
5-------------------|-0------------------ 
6-------------------|-------------------- 
 
 Am               Dm 
Как небосвод мое сознанье,
 E                 Am 
над бытием судьбы земной,
    Am/c  Dm   H7    E7 
все катаклизмы мирозданья
 Dm       Dm/f     H7 
произошли уже со мной
 E               Am Am/c 
произошли уже со мной.
  Am     Dm   E      Am 
И память так смела и прочна,
        Dm7     G     C 
что быть пророчеству пора.
        Dm     E7     F   A7 
И жизнь, короткая, как строчка,
 Dm        G         C   A7 
бессмертной кажется с утра
 Dm        E          Am 
бессмертной кажется с утра.

Am Dm E Asus2 
 
Так много слез сушил мне ветер,
так много старых парусов
лежит на дне, летит по свету
под звуки юных голосов,
так мимолетны состраданья,
так много грустных стариков,
так много грустных стариков,
так поэтичны оправданья
измен, соблазнов и грехов,
измен, соблазнов и грехов.
 
так много злости и отравы
я через сердце пропустил,
что быть жестоким и неправым
нет ни желания ни сил 
нет ни желания ни сил,
так хороши людские лица, 
когда в них свет и вера есть! 
И я попробовал молиться -
молитва обратилась в песнь
молитва обратилась в песнь.
1969 г.


Список песен по алфавиту

Если у вас есть подбор, которого нет на сайте, и вы хотите его опубликовать — присылайте!